Monday, July 5, 2010

GLORIA - YUI Lyrics & Chords

Kanji Lyric

魅惑の扉 将来の展望だって
揺らぎそうになる 
青春時代で
人生が変わる? 
恋したいのに
臆病になる 
問題 山積みなんだ

答えを導く為には
this feeling
切り捨てられない
all my love

ユメじゃないやいやいやいやい
手が届きそうなGLORIA 
たまに見えなくなって
Cryやいやいやいやい
近道を探しても同じね 
また迷ってしまうでしょ?

成功者の 声高々に
語るエピソード 
他人事みたい
今のアタシ 
小さな部屋で
考えている 
空想の未来に・・・

問いかけてみるけれど
bad feeling
イメージ出来ないのが
all my love

負けてないやいやいやい
輝く先にGLORIA 
近づいてるはずさ
Cry やいやいやいやい
もう誰のせいにもしないよ 
全部抱きしめてゆく
夢中になれなきゃウソね

wo~ サクラが咲く頃にきっと 
wo~ 新しい自分に出会えるの

ユメじゃないはずよ 
報われると信じてる 
本当は怖いけど

Cryやいやいやいやいやい
くやしキモチがあるから 
Get glory day

負けてないやいやいやい
輝く先にGLORIA 
近づいてるはずさ
Cryやいやいやいやい
眠れない夜にひとり
膝を抱え込んでも
Baby 泣いてる時間はない

Romaji Lyric
Miwaku no tobira shourai no tenbou datte
Yuragisou ni naru
Seishun jidai de
Jinsei ga kawaru?
Koi shitai no ni
Okubyou ni naru
Mondai yamazumi nanda

Kotae wo michibiku tame ni ha
this feeling
Kirisuterarenai
all my love

Yume janaiyaiyaiyaiyaiyai
Te ga todokisou na GLORIA
Tama ni mienakunatte
Cry yaiyaiyaiyaiyai
Chikamichi wo sagashite mo onaji ne
Mata mayotte shimau desho?

Seikousha no koe takadaka ni
Kataru EPISOODO
Taningoto mitai
Ima no (w)atashi
Chiisana heya de
Kangaeteiru
Kuusou no mirai ni...

Toikakete miru keredo
bad feeling
IMEEJI dekinai no ga
all my love

Maketenai yaiyaiyaiyai
Kagayaku saki ni GLORIA
Chikazuiteru hazu sa
Cry yaiyaiyaiyaiyai
Mou dare no sei ni mo shinai yo
Zenbu dakishimeteyuku
Muchuu ni narenakya uso ne

wo~sakura ga saku koro ni kitto
wo~atarashii jibun ni deaeru no

Yume janai hazu yo
Mukuwareru to shinjiteru
Hontou ha kowai kedo

Cry yaiyaiyaiyaiyai
Kuyashii kimochi ga aru kara
Get glory day

Maketenai yaiyaiyaiyaiyai
Kagayaku saki ni GLORIA
Chikazuiteru hazu sa
Cry yaiyaiyaiyaiyai
Nemurenai yoru ni hitori
Hiza wo kakaekonde mo
Baby naiteru jikan ha nai

Translation
That fascinating gateway, even the vision of the future
Becomes unstable
Life changes during youth?
Wanting to fall in love
Yet backing away timidly
There are loads of problems

To arrive at the answer
I can’t let go of this feeling
All my love

This isn’t a dream
The GLORIA that is almost within reach
That I lose sight of occasionally
Cry
Searching for a shortcut is useless
I’ll probably lose my way again?

The loud voices of the successful people
Speaking about an episode
As if it didn’t concern them
And now
In my small room
I am pondering over
That imaginary future…

Tried asking myself but
Bad feeling
Can’t imagine it
All my love

I have not lost
The GLORIA at that brilliantly shimmering end
I should be getting closer to it
Cry
Won’t push the blame to others anymore
I’ll take it all with me
It’ll all be a lie if I can’t become absorbed in it

Wo~ When the sakura blooms, surely
Wo~ I’ll be able to meet my new self

This isn’t a dream
I believe that it will be worthwhile
Though the truth is that I’m afraid

Cry
Because I’m feeling frustrated
Get glory day

I have not lost
The GLORIA at that brilliantly shimmering end
I should be getting closer to it
Cry
During sleepless nights
Even if I’m left alone hugging my knees
Baby there is no time to be crying
Chords & Tabs
Intro:
F#m D A E (x4)

Verse:
F#m D A E (x4)
D E
D E C#7

Chorus:
F#m D A E (x4)

D E

Instrumental:
F#m D A E (x2)

repeat Verse

repeat Chorus

F#m D A E (x2)

Bridge:
Bm A
Bm D C#7

repeat Chorus (x2)

F#m D A E (x2)

Outro:
F#m D A E (x4)
F#m


Intro/Instrumental/Outro Solo:

---------------------------------
-7-----------------7-------------
----7--6-7-6----------7--6-7-6--- (x2) "Instrumental solo only once"
-------------9-6-9-------------9-
---------------------------------
---------------------------------

Lick before Chorus:

----------------------
----------------------
---------------------- (x2)
----------------------
-------5--------4-7---
-4-5-7------5-7-------

Lick at end of 2nd and 4th Chorus:

Guitar 1:
----------------------------------------------------
-----10h12p10------------10h12p10----------9-x-x-9--
-/11----------11-9---/11----------11-9-----9-x-x-9--
----------------------------------------------------
----------------------------------------------------
----------------------------------------------------
Guitar 2:
---------------9-12--------------------9-12-x-x-----
------7----/10-------12-------7----/10----------12--
----6---7-------------------6---7-------------------
----------------------------------------------------
-/9----------------------/9-------------------------
----------------------------------------------------

Lick at 4th Chorus:

-------------------------------------------------------------------------------------------
-----------------------17b19~~~--------12b14b12p10-------------12b14b12b10----10-12/14-----
---------------------------------------------------11---/9~~---------------11----------11--
-/14b16b14b16b14~~-------------------------------------------------------------------------
-------------------------------------------------------------------------------------------
-------------------------------------------------------------------------------------------

Romaji by Kippei
English by uchihamel
Chords& Tabs by tsunvun86 
@YL

0 komentar:

Post a Comment

everyone can comment here. Open ID,Livejournal,Wordpress, TypePad,AIM,Blogger.

Facebook , Twitter,Fupei,Plurk,etc.
(Choose an identity : Name/URL <= enter name and add your url)

If you don't have account, Choose an identity : Anonymous

and PUBLISH YOUR COMMENT.

no spamming.

DAFTAR ISI

Loading...

Recent Comment